  0
SECTION
  2
HEADER
  9
$ACADVER
  1
AC1009
  9
$DWGCODEPAGE
  3
ansi_1252
  9
$INSBASE
 10
0.0
 20
0.0
 30
0.0
  9
$EXTMIN
 10
6.177783275119836
 20
1.406909605841509
 30
0.0
  9
$EXTMAX
 10
506.17778327512
 20
477.2399112891746
 30
0.0
  9
$LIMMIN
 10
0.0
 20
0.0
  9
$LIMMAX
 10
12.0
 20
9.0
  9
$ORTHOMODE
 70
     0
  9
$REGENMODE
 70
     1
  9
$FILLMODE
 70
     1
  9
$QTEXTMODE
 70
     0
  9
$MIRRTEXT
 70
     1
  9
$DRAGMODE
 70
     2
  9
$LTSCALE
 40
1.0
  9
$OSMODE
 70
    37
  9
$ATTMODE
 70
     1
  9
$TEXTSIZE
 40
0.2
  9
$TRACEWID
 40
0.05
  9
$TEXTSTYLE
  7
STANDARD
  9
$CLAYER
  8
0
  9
$CELTYPE
  6
BYLAYER
  9
$CECOLOR
 62
   256
  9
$DIMSCALE
 40
1.0
  9
$DIMASZ
 40
0.18
  9
$DIMEXO
 40
0.0625
  9
$DIMDLI
 40
0.38
  9
$DIMRND
 40
0.0
  9
$DIMDLE
 40
0.0
  9
$DIMEXE
 40
0.18
  9
$DIMTP
 40
0.0
  9
$DIMTM
 40
0.0
  9
$DIMTXT
 40
0.18
  9
$DIMCEN
 40
0.09
  9
$DIMTSZ
 40
0.0
  9
$DIMTOL
 70
     0
  9
$DIMLIM
 70
     0
  9
$DIMTIH
 70
     1
  9
$DIMTOH
 70
     1
  9
$DIMSE1
 70
     0
  9
$DIMSE2
 70
     0
  9
$DIMTAD
 70
     0
  9
$DIMZIN
 70
     0
  9
$DIMBLK
  1

  9
$DIMASO
 70
     1
  9
$DIMSHO
 70
     1
  9
$DIMPOST
  1

  9
$DIMAPOST
  1

  9
$DIMALT
 70
     0
  9
$DIMALTD
 70
     2
  9
$DIMALTF
 40
25.4
  9
$DIMLFAC
 40
1.0
  9
$DIMTOFL
 70
     0
  9
$DIMTVP
 40
0.0
  9
$DIMTIX
 70
     0
  9
$DIMSOXD
 70
     0
  9
$DIMSAH
 70
     0
  9
$DIMBLK1
  1

  9
$DIMBLK2
  1

  9
$DIMSTYLE
  2
STANDARD
  9
$DIMCLRD
 70
     0
  9
$DIMCLRE
 70
     0
  9
$DIMCLRT
 70
     0
  9
$DIMTFAC
 40
1.0
  9
$DIMGAP
 40
0.09
  9
$LUNITS
 70
     2
  9
$LUPREC
 70
     4
  9
$SKETCHINC
 40
0.1
  9
$FILLETRAD
 40
0.5
  9
$AUNITS
 70
     0
  9
$AUPREC
 70
     0
  9
$MENU
  1
.
  9
$ELEVATION
 40
0.0
  9
$PELEVATION
 40
0.0
  9
$THICKNESS
 40
0.0
  9
$LIMCHECK
 70
     0
  9
$CHAMFERA
 40
0.0
  9
$CHAMFERB
 40
0.0
  9
$SKPOLY
 70
     0
  9
$TDCREATE
 40
2454910.5
  9
$TDUPDATE
 40
2459387.773599016
  9
$TDINDWG
 40
0.0000000116
  9
$TDUSRTIMER
 40
0.0000000116
  9
$USRTIMER
 70
     1
  9
$ANGBASE
 50
0.0
  9
$ANGDIR
 70
     0
  9
$PDMODE
 70
     0
  9
$PDSIZE
 40
0.0
  9
$PLINEWID
 40
0.0
  9
$COORDS
 70
     1
  9
$SPLFRAME
 70
     0
  9
$SPLINETYPE
 70
     6
  9
$SPLINESEGS
 70
     8
  9
$ATTDIA
 70
     0
  9
$ATTREQ
 70
     1
  9
$HANDLING
 70
     1
  9
$HANDSEED
  5
105
  9
$SURFTAB1
 70
     6
  9
$SURFTAB2
 70
     6
  9
$SURFTYPE
 70
     6
  9
$SURFU
 70
     6
  9
$SURFV
 70
     6
  9
$UCSNAME
  2

  9
$UCSORG
 10
0.0
 20
0.0
 30
0.0
  9
$UCSXDIR
 10
1.0
 20
0.0
 30
0.0
  9
$UCSYDIR
 10
0.0
 20
1.0
 30
0.0
  9
$PUCSNAME
  2

  9
$PUCSORG
 10
0.0
 20
0.0
 30
0.0
  9
$PUCSXDIR
 10
1.0
 20
0.0
 30
0.0
  9
$PUCSYDIR
 10
0.0
 20
1.0
 30
0.0
  9
$USERI1
 70
     0
  9
$USERI2
 70
     0
  9
$USERI3
 70
     0
  9
$USERI4
 70
     0
  9
$USERI5
 70
     0
  9
$USERR1
 40
0.0
  9
$USERR2
 40
0.0
  9
$USERR3
 40
0.0
  9
$USERR4
 40
0.0
  9
$USERR5
 40
0.0
  9
$WORLDVIEW
 70
     1
  9
$SHADEDGE
 70
     3
  9
$SHADEDIF
 70
    70
  9
$TILEMODE
 70
     1
  9
$MAXACTVP
 70
    64
  9
$PLIMCHECK
 70
     0
  9
$PEXTMIN
 10
1.000000000000000E+20
 20
1.000000000000000E+20
 30
1.000000000000000E+20
  9
$PEXTMAX
 10
-1.000000000000000E+20
 20
-1.000000000000000E+20
 30
-1.000000000000000E+20
  9
$PLIMMIN
 10
0.0
 20
0.0
  9
$PLIMMAX
 10
12.0
 20
9.0
  9
$UNITMODE
 70
     0
  9
$VISRETAIN
 70
     1
  9
$PLINEGEN
 70
     0
  9
$PSLTSCALE
 70
     1
  0
ENDSEC
  0
SECTION
  2
TABLES
  0
TABLE
  2
VPORT
 70
     1
  0
VPORT
  2
*ACTIVE
 70
     0
 10
0.0
 20
0.0
 11
1.0
 21
1.0
 12
10.42990654205607
 22
4.5
 13
0.0
 23
0.0
 14
0.5
 24
0.5
 15
0.5
 25
0.5
 16
0.0
 26
0.0
 36
1.0
 17
0.0
 27
0.0
 37
0.0
 40
9.0
 41
1.972972972850329
 42
50.0
 43
0.0
 44
0.0
 50
0.0
 51
0.0
 71
     0
 72
   100
 73
     1
 74
     3
 75
     0
 76
     0
 77
     0
 78
     0
  0
ENDTAB
  0
TABLE
  2
LTYPE
 70
     2
  0
LTYPE
  2
CONTINUOUS
 70
     0
  3
Solid line
 72
    65
 73
     0
 40
0.0
  0
LTYPE
  2
CONTINUOUS2
 70
     0
  3
Solid Line
 72
    65
 73
     0
 40
0.0
  0
ENDTAB
  0
TABLE
  2
LAYER
 70
     2
  0
LAYER
  2
0
 70
     0
 62
     7
  6
CONTINUOUS
  0
LAYER
  2
LAYER_03
 70
     0
 62
    18
  6
CONTINUOUS
  0
ENDTAB
  0
TABLE
  2
STYLE
 70
     1
  0
STYLE
  2
STANDARD
 70
     0
 40
0.0
 41
1.0
 50
0.0
 71
     0
 42
0.2
  3
txt
  4

  0
ENDTAB
  0
TABLE
  2
VIEW
 70
     0
  0
ENDTAB
  0
TABLE
  2
UCS
 70
     0
  0
ENDTAB
  0
TABLE
  2
APPID
 70
     1
  0
APPID
  2
ACAD
 70
     0
  0
ENDTAB
  0
TABLE
  2
DIMSTYLE
 70
     1
  0
DIMSTYLE
  2
STANDARD
 70
     0
  3

  4

  5

  6

  7

 40
1.0
 41
0.18
 42
0.0625
 43
0.38
 44
0.18
 45
0.0
 46
0.0
 47
0.0
 48
0.0
140
0.18
141
0.09
142
0.0
143
25.4
144
1.0
145
0.0
146
1.0
147
0.09
 71
     0
 72
     0
 73
     1
 74
     1
 75
     0
 76
     0
 77
     0
 78
     0
170
     0
171
     2
172
     0
173
     0
174
     0
175
     0
176
     0
177
     0
178
     0
  0
ENDTAB
  0
ENDSEC
  0
SECTION
  2
BLOCKS
  0
BLOCK
  8
0
  2
$MODEL_SPACE
 70
     0
 10
0.0
 20
0.0
 30
0.0
  3
$MODEL_SPACE
  1

  0
ENDBLK
  5
21
  8
0
  0
BLOCK
 67
     1
  8
0
  2
$PAPER_SPACE
 70
     0
 10
0.0
 20
0.0
 30
0.0
  3
$PAPER_SPACE
  1

  0
ENDBLK
  5
1D
 67
     1
  8
0
  0
ENDSEC
  0
SECTION
  2
ENTITIES
  0
POLYLINE
  5
70
  8
LAYER_03
 66
     1
 10
0.0
 20
0.0
 30
0.0
 70
     1
  0
VERTEX
  5
81
  8
LAYER_03
 10
18.17778327511984
 20
1.406909605841737
 30
0.0
  0
VERTEX
  5
82
  8
LAYER_03
 10
18.17778327511984
 20
36.90263940968343
 30
0.0
 42
1.0
  0
VERTEX
  5
83
  8
LAYER_03
 10
13.67351307896153
 20
41.40690960584173
 30
0.0
  0
VERTEX
  5
84
  8
LAYER_03
 10
6.177783275119836
 20
41.40690960584173
 30
0.0
  0
VERTEX
  5
85
  8
LAYER_03
 10
6.177783275119836
 20
91.40690960584162
 30
0.0
  0
VERTEX
  5
86
  8
LAYER_03
 10
13.67351307896153
 20
91.40690960584162
 30
0.0
 42
1.0
  0
VERTEX
  5
87
  8
LAYER_03
 10
18.17778327511984
 20
95.91117980199992
 30
0.0
  0
VERTEX
  5
88
  8
LAYER_03
 10
18.17778327511984
 20
136.9026394096833
 30
0.0
 42
1.0
  0
VERTEX
  5
89
  8
LAYER_03
 10
13.67351307896153
 20
141.4069096058416
 30
0.0
  0
VERTEX
  5
8A
  8
LAYER_03
 10
6.177783275119836
 20
141.4069096058416
 30
0.0
  0
VERTEX
  5
8B
  8
LAYER_03
 10
6.17778327511995
 20
191.4069096058416
 30
0.0
  0
VERTEX
  5
8C
  8
LAYER_03
 10
13.67351307896164
 20
191.4069096058416
 30
0.0
 42
1.0
  0
VERTEX
  5
8D
  8
LAYER_03
 10
18.17778327511995
 20
195.9111798019999
 30
0.0
  0
VERTEX
  5
8E
  8
LAYER_03
 10
18.17778327511995
 20
231.4069096058416
 30
0.0
  0
VERTEX
  5
8F
  8
LAYER_03
 10
494.17778327512
 20
231.4069096058415
 30
0.0
  0
VERTEX
  5
90
  8
LAYER_03
 10
494.17778327512
 20
195.9111798019998
 30
0.0
 42
1.0
  0
VERTEX
  5
91
  8
LAYER_03
 10
498.6820534712783
 20
191.4069096058415
 30
0.0
  0
VERTEX
  5
92
  8
LAYER_03
 10
506.17778327512
 20
191.4069096058415
 30
0.0
  0
VERTEX
  5
93
  8
LAYER_03
 10
506.17778327512
 20
141.4069096058415
 30
0.0
  0
VERTEX
  5
94
  8
LAYER_03
 10
498.6820534712783
 20
141.4069096058415
 30
0.0
 42
1.0
  0
VERTEX
  5
95
  8
LAYER_03
 10
494.17778327512
 20
136.9026394096832
 30
0.0
  0
VERTEX
  5
96
  8
LAYER_03
 10
494.17778327512
 20
95.91117980199981
 30
0.0
 42
1.0
  0
VERTEX
  5
97
  8
LAYER_03
 10
498.6820534712783
 20
91.4069096058415
 30
0.0
  0
VERTEX
  5
98
  8
LAYER_03
 10
506.17778327512
 20
91.4069096058415
 30
0.0
  0
VERTEX
  5
99
  8
LAYER_03
 10
506.17778327512
 20
41.40690960584151
 30
0.0
  0
VERTEX
  5
9A
  8
LAYER_03
 10
498.6820534712783
 20
41.40690960584151
 30
0.0
 42
1.0
  0
VERTEX
  5
9B
  8
LAYER_03
 10
494.17778327512
 20
36.9026394096832
 30
0.0
  0
VERTEX
  5
9C
  8
LAYER_03
 10
494.17778327512
 20
1.406909605841509
 30
0.0
  0
SEQEND
  5
FB
  8
LAYER_03
  0
POLYLINE
  5
71
  8
LAYER_03
 66
     1
 10
0.0
 20
0.0
 30
0.0
 70
     1
  0
VERTEX
  5
9D
  8
LAYER_03
 10
18.17778327512006
 20
247.2399112891747
 30
0.0
  0
VERTEX
  5
9E
  8
LAYER_03
 10
18.17778327512006
 20
282.7356410930164
 30
0.0
 42
1.0
  0
VERTEX
  5
9F
  8
LAYER_03
 10
13.67351307896176
 20
287.2399112891747
 30
0.0
  0
VERTEX
  5
A0
  8
LAYER_03
 10
6.177783275120063
 20
287.2399112891747
 30
0.0
  0
VERTEX
  5
A1
  8
LAYER_03
 10
6.177783275120063
 20
337.2399112891747
 30
0.0
  0
VERTEX
  5
A2
  8
LAYER_03
 10
13.67351307896176
 20
337.2399112891747
 30
0.0
 42
1.0
  0
VERTEX
  5
A3
  8
LAYER_03
 10
18.17778327512006
 20
341.744181485333
 30
0.0
  0
VERTEX
  5
A4
  8
LAYER_03
 10
18.17778327512006
 20
382.7356410930164
 30
0.0
 42
1.0
  0
VERTEX
  5
A5
  8
LAYER_03
 10
13.67351307896176
 20
387.2399112891747
 30
0.0
  0
VERTEX
  5
A6
  8
LAYER_03
 10
6.177783275120063
 20
387.2399112891747
 30
0.0
  0
VERTEX
  5
A7
  8
LAYER_03
 10
6.177783275120063
 20
437.2399112891746
 30
0.0
  0
VERTEX
  5
A8
  8
LAYER_03
 10
13.67351307896176
 20
437.2399112891746
 30
0.0
 42
1.0
  0
VERTEX
  5
A9
  8
LAYER_03
 10
18.17778327512006
 20
441.7441814853329
 30
0.0
  0
VERTEX
  5
AA
  8
LAYER_03
 10
18.17778327512006
 20
477.2399112891746
 30
0.0
  0
VERTEX
  5
AB
  8
LAYER_03
 10
494.1777832751202
 20
477.2399112891746
 30
0.0
  0
VERTEX
  5
AC
  8
LAYER_03
 10
494.17778327512
 20
441.7441814853329
 30
0.0
 42
1.0
  0
VERTEX
  5
AD
  8
LAYER_03
 10
498.6820534712783
 20
437.2399112891746
 30
0.0
  0
VERTEX
  5
AE
  8
LAYER_03
 10
506.17778327512
 20
437.2399112891746
 30
0.0
  0
VERTEX
  5
AF
  8
LAYER_03
 10
506.17778327512
 20
387.2399112891746
 30
0.0
  0
VERTEX
  5
B0
  8
LAYER_03
 10
498.6820534712783
 20
387.2399112891746
 30
0.0
 42
1.0
  0
VERTEX
  5
B1
  8
LAYER_03
 10
494.17778327512
 20
382.7356410930163
 30
0.0
  0
VERTEX
  5
B2
  8
LAYER_03
 10
494.17778327512
 20
341.7441814853329
 30
0.0
 42
1.0
  0
VERTEX
  5
B3
  8
LAYER_03
 10
498.6820534712783
 20
337.2399112891746
 30
0.0
  0
VERTEX
  5
B4
  8
LAYER_03
 10
506.17778327512
 20
337.2399112891746
 30
0.0
  0
VERTEX
  5
B5
  8
LAYER_03
 10
506.17778327512
 20
287.2399112891746
 30
0.0
  0
VERTEX
  5
B6
  8
LAYER_03
 10
498.6820534712783
 20
287.2399112891746
 30
0.0
 42
1.0
  0
VERTEX
  5
B7
  8
LAYER_03
 10
494.17778327512
 20
282.7356410930163
 30
0.0
  0
VERTEX
  5
B8
  8
LAYER_03
 10
494.17778327512
 20
247.2399112891746
 30
0.0
  0
SEQEND
  5
FC
  8
LAYER_03
  0
POLYLINE
  5
72
  8
LAYER_03
 66
     1
 10
0.0
 20
0.0
 30
0.0
 70
     1
  0
VERTEX
  5
B9
  8
LAYER_03
 10
435.682053471282
 20
456.0782302313448
 30
0.0
  0
VERTEX
  5
BA
  8
LAYER_03
 10
476.6735130789653
 20
456.0782302313448
 30
0.0
 42
-1.0
  0
VERTEX
  5
BB
  8
LAYER_03
 10
481.1777832751236
 20
451.5739600351865
 30
0.0
  0
VERTEX
  5
BC
  8
LAYER_03
 10
481.1777832751236
 20
448.5825004275031
 30
0.0
 42
-1.0
  0
VERTEX
  5
BD
  8
LAYER_03
 10
476.6735130789653
 20
444.0782302313448
 30
0.0
  0
VERTEX
  5
BE
  8
LAYER_03
 10
435.682053471282
 20
444.0782302313448
 30
0.0
 42
-1.0
  0
VERTEX
  5
BF
  8
LAYER_03
 10
431.1777832751237
 20
448.5825004275031
 30
0.0
  0
VERTEX
  5
C0
  8
LAYER_03
 10
431.1777832751237
 20
451.5739600351865
 30
0.0
 42
-1.0
  0
SEQEND
  5
FD
  8
LAYER_03
  0
POLYLINE
  5
73
  8
LAYER_03
 66
     1
 10
0.0
 20
0.0
 30
0.0
 70
     1
  0
VERTEX
  5
C1
  8
LAYER_03
 10
481.17778327512
 20
280.0044882268115
 30
0.0
  0
VERTEX
  5
C2
  8
LAYER_03
 10
481.17778327512
 20
277.0130286191281
 30
0.0
 42
-1.0
  0
VERTEX
  5
C3
  8
LAYER_03
 10
476.6735130789616
 20
272.5087584229698
 30
0.0
  0
VERTEX
  5
C4
  8
LAYER_03
 10
435.6820534712783
 20
272.5087584229706
 30
0.0
 42
-1.0
  0
VERTEX
  5
C5
  8
LAYER_03
 10
431.1777832751201
 20
277.0130286191289
 30
0.0
  0
VERTEX
  5
C6
  8
LAYER_03
 10
431.1777832751201
 20
280.0044882268123
 30
0.0
 42
-1.0
  0
VERTEX
  5
C7
  8
LAYER_03
 10
435.6820534712784
 20
284.5087584229706
 30
0.0
  0
VERTEX
  5
C8
  8
LAYER_03
 10
476.6735130789617
 20
284.5087584229698
 30
0.0
 42
-1.0
  0
SEQEND
  5
FE
  8
LAYER_03
  0
POLYLINE
  5
74
  8
LAYER_03
 66
     1
 10
0.0
 20
0.0
 30
0.0
 70
     1
  0
VERTEX
  5
C9
  8
LAYER_03
 10
435.6820534712784
 20
210.245237814353
 30
0.0
  0
VERTEX
  5
CA
  8
LAYER_03
 10
476.6735130789617
 20
210.245237814353
 30
0.0
 42
-1.0
  0
VERTEX
  5
CB
  8
LAYER_03
 10
481.17778327512
 20
205.7409676181947
 30
0.0
  0
VERTEX
  5
CC
  8
LAYER_03
 10
481.17778327512
 20
202.7495080105113
 30
0.0
 42
-1.0
  0
VERTEX
  5
CD
  8
LAYER_03
 10
476.6735130789617
 20
198.245237814353
 30
0.0
  0
VERTEX
  5
CE
  8
LAYER_03
 10
435.6820534712784
 20
198.245237814353
 30
0.0
 42
-1.0
  0
VERTEX
  5
CF
  8
LAYER_03
 10
431.1777832751201
 20
202.7495080105113
 30
0.0
  0
VERTEX
  5
D0
  8
LAYER_03
 10
431.1777832751201
 20
205.7409676181947
 30
0.0
 42
-1.0
  0
SEQEND
  5
FF
  8
LAYER_03
  0
POLYLINE
  5
75
  8
LAYER_03
 66
     1
 10
0.0
 20
0.0
 30
0.0
 70
     1
  0
VERTEX
  5
D1
  8
LAYER_03
 10
435.6820534712783
 20
26.67576600598067
 30
0.0
  0
VERTEX
  5
D2
  8
LAYER_03
 10
476.6735130789617
 20
26.67576600598067
 30
0.0
 42
1.0
  0
VERTEX
  5
D3
  8
LAYER_03
 10
481.17778327512
 20
31.18003620213898
 30
0.0
  0
VERTEX
  5
D4
  8
LAYER_03
 10
481.17778327512
 20
34.17149580982236
 30
0.0
 42
1.0
  0
VERTEX
  5
D5
  8
LAYER_03
 10
476.6735130789617
 20
38.67576600598066
 30
0.0
  0
VERTEX
  5
D6
  8
LAYER_03
 10
435.6820534712783
 20
38.67576600598066
 30
0.0
 42
1.0
  0
VERTEX
  5
D7
  8
LAYER_03
 10
431.17778327512
 20
34.17149580982236
 30
0.0
  0
VERTEX
  5
D8
  8
LAYER_03
 10
431.17778327512
 20
31.18003620213898
 30
0.0
 42
1.0
  0
SEQEND
  5
100
  8
LAYER_03
  0
POLYLINE
  5
76
  8
LAYER_03
 66
     1
 10
0.0
 20
0.0
 30
0.0
 70
     1
  0
VERTEX
  5
D9
  8
LAYER_03
 10
35.68205347128188
 20
456.07822877312
 30
0.0
  0
VERTEX
  5
DA
  8
LAYER_03
 10
76.67351307896527
 20
456.0782287731192
 30
0.0
 42
-1.0
  0
VERTEX
  5
DB
  8
LAYER_03
 10
81.17778327512336
 20
451.5739585769608
 30
0.0
  0
VERTEX
  5
DC
  8
LAYER_03
 10
81.17778327512313
 20
448.5824989692774
 30
0.0
 42
-1.0
  0
VERTEX
  5
DD
  8
LAYER_03
 10
76.67351307896462
 20
444.0782287731192
 30
0.0
  0
VERTEX
  5
DE
  8
LAYER_03
 10
35.68205347128123
 20
444.07822877312
 30
0.0
 42
-1.0
  0
VERTEX
  5
DF
  8
LAYER_03
 10
31.17778327512313
 20
448.5824989692785
 30
0.0
  0
VERTEX
  5
E0
  8
LAYER_03
 10
31.17778327512336
 20
451.5739585769619
 30
0.0
 42
-1.0
  0
SEQEND
  5
101
  8
LAYER_03
  0
POLYLINE
  5
77
  8
LAYER_03
 66
     1
 10
0.0
 20
0.0
 30
0.0
 70
     1
  0
VERTEX
  5
E1
  8
LAYER_03
 10
35.68205347127833
 20
272.508756964746
 30
0.0
  0
VERTEX
  5
E2
  8
LAYER_03
 10
76.67351307896172
 20
272.5087569647452
 30
0.0
 42
1.0
  0
VERTEX
  5
E3
  8
LAYER_03
 10
81.17778327512006
 20
277.0130271609035
 30
0.0
  0
VERTEX
  5
E4
  8
LAYER_03
 10
81.17778327512006
 20
280.0044867685869
 30
0.0
 42
1.0
  0
VERTEX
  5
E5
  8
LAYER_03
 10
76.67351307896179
 20
284.5087569647452
 30
0.0
  0
VERTEX
  5
E6
  8
LAYER_03
 10
35.68205347127841
 20
284.508756964746
 30
0.0
 42
1.0
  0
VERTEX
  5
E7
  8
LAYER_03
 10
31.17778327512006
 20
280.0044867685877
 30
0.0
  0
VERTEX
  5
E8
  8
LAYER_03
 10
31.17778327512006
 20
277.0130271609043
 30
0.0
 42
1.0
  0
SEQEND
  5
102
  8
LAYER_03
  0
POLYLINE
  5
78
  8
LAYER_03
 66
     1
 10
0.0
 20
0.0
 30
0.0
 70
     1
  0
VERTEX
  5
E9
  8
LAYER_03
 10
35.68205347128004
 20
198.245227089787
 30
0.0
  0
VERTEX
  5
EA
  8
LAYER_03
 10
76.67351307896342
 20
198.2452270897863
 30
0.0
 42
1.0
  0
VERTEX
  5
EB
  8
LAYER_03
 10
81.17778327512177
 20
202.7494972859446
 30
0.0
  0
VERTEX
  5
EC
  8
LAYER_03
 10
81.17778327512177
 20
205.7409568936279
 30
0.0
 42
1.0
  0
VERTEX
  5
ED
  8
LAYER_03
 10
76.6735130789635
 20
210.2452270897863
 30
0.0
  0
VERTEX
  5
EE
  8
LAYER_03
 10
35.68205347128011
 20
210.245227089787
 30
0.0
 42
1.0
  0
VERTEX
  5
EF
  8
LAYER_03
 10
31.17778327512177
 20
205.7409568936287
 30
0.0
  0
VERTEX
  5
F0
  8
LAYER_03
 10
31.17778327512177
 20
202.7494972859454
 30
0.0
 42
1.0
  0
SEQEND
  5
103
  8
LAYER_03
  0
POLYLINE
  5
79
  8
LAYER_03
 66
     1
 10
0.0
 20
0.0
 30
0.0
 70
     1
  0
VERTEX
  5
F1
  8
LAYER_03
 10
35.68205347127722
 20
26.67575528141216
 30
0.0
  0
VERTEX
  5
F2
  8
LAYER_03
 10
76.67351307896061
 20
26.67575528141198
 30
0.0
 42
1.0
  0
VERTEX
  5
F3
  8
LAYER_03
 10
81.17778327511893
 20
31.18002547757027
 30
0.0
  0
VERTEX
  5
F4
  8
LAYER_03
 10
81.17778327511893
 20
34.17148508525366
 30
0.0
 42
1.0
  0
VERTEX
  5
F5
  8
LAYER_03
 10
76.67351307896062
 20
38.67575528141198
 30
0.0
  0
VERTEX
  5
F6
  8
LAYER_03
 10
35.68205347127724
 20
38.67575528141217
 30
0.0
 42
1.0
  0
VERTEX
  5
F7
  8
LAYER_03
 10
31.17778327511893
 20
34.17148508525386
 30
0.0
  0
VERTEX
  5
F8
  8
LAYER_03
 10
31.17778327511893
 20
31.18002547757048
 30
0.0
 42
1.0
  0
SEQEND
  5
104
  8
LAYER_03
  0
ENDSEC
  0
EOF
